Deviant Login Shop  Join deviantART for FREE Take the Tour
×

More from deviantART



Details

Submitted on
October 9, 2010
File Size
2.0 KB
Link
Thumb

Stats

Views
12,184 (6 today)
Favourites
227 (who?)
Comments
96
Downloads
123
×
Marukaite Chikyuu~


e |--0--2--4--0--555--------0--2--------444-----0--2--4--0--555---9--7--0--2---------0-----|
B |------------------------4----------4------------------------------------------------4-----------|
G |-------------------------------------------------------------------------------------------------|
D |-------------------------------------------------------------------------------------------------|
A |-------------------------------------------------------------------------------------------------|
E |-------------------------------------------------------------------------------------------------|

e |--9----9--11--9--9--7----7--55555--4--2--4-----0---9--9--11--9--7--9--11-12-----|
B |-------------------------------------------------------------------------------------------------|
G |-------------------------------------------------------------------------------------------------|
D |-------------------------------------------------------------------------------------------------|
A |-------------------------------------------------------------------------------------------------|
E |-------------------------------------------------------------------------------------------------|

e |--7--9---11---12------------------------------------------------------------------------------|
B |-------------------------------------------------------------------------------------------------|
G |-------------------------------------------------------------------------------------------------|
D |-------------------------------------------------------------------------------------------------|
A |-------------------------------------------------------------------------------------------------|
E |-------------------------------------------------------------------------------------------------|
Guitar Tabs to Marukaite Chikyuu from Hetalia: Axis Powers!!

Sorry if there are any mistakes; It's my first tab ^^;

Enjoy~

10 December 2011: Thank you to all who favourited this!
Add a Comment:
 
:icontricksterlalonde:
TricksterLalonde Feb 4, 2014  New member Hobbyist General Artist
GAH THANKU
Reply
:iconnotaloidmaster:
My awesome friend played it in an electric guitar with the speed like a running Italian. :iconrunningawayplz:
Reply
:icontricksterlalonde:
TricksterLalonde Feb 4, 2014  New member Hobbyist General Artist
I like Homestuck too. We should be friends *huddles closely to you*
Reply
:iconkalteeinsamkeit:
KalteEinsamkeit May 15, 2013  Hobbyist Digital Artist
I think on accoustic, at least, it's
e |--9----9--11--9--9--7----7--55555--4--2--4-----0---9--9--11--9--7--9-------12-----|
B |-------------------------------------------------------------------------------------------------|
G |-------------------------------------------------------------------------------------------------|
D |-------------------------------------------------------------------------------------------------|
A |-------------------------------------------------------------------------------------------------|
E |-------------------------------------------------------------------------------------------------|

The 11 in there doesn't sound right :meow:
Reply
:iconavocetsstables:
AvocetsStables Apr 24, 2013  Hobbyist Digital Artist
Amazing! Sounds correct too!
Reply
:iconmisguided-gh0st:
Misguided-Gh0st Dec 29, 2012  Hobbyist General Artist
This is Prussia awesome! I'm annoying my brothers by playing it non stop and singing Germany's version along to it!
Reply
:iconnekohero:
nekohero Nov 11, 2012  Hobbyist
Awesome :iconiloveitplz:
Reply
:iconizaoriharacrystal:
IzaOriharaCrystal Nov 7, 2012  Student Writer
OwO awesome!!!i'm gonna do this in my electric guitar
Reply
:iconsydneya:
SydneyA Oct 30, 2012  Hobbyist General Artist
I absolutely love you for this :iconiloveitplz:
Reply
:icongoldenchase:
GoldenChase Oct 24, 2012  Hobbyist Digital Artist
thanks very much!
Reply
Add a Comment: